Saturday, 3 November 2012

Kammani ee Prema | Priyathama Neevachata Kushalama





TABS : Download TABS 


b > 2-3-5—5—5-2-0-2-3-----------2-0---------
e >------------------------------3-2-3--------------
------------------------------------------------------
b > 2-3-5—5—5-2-0-2-3-----------2-0---------
e >------------------------------3-2-3--------------
------------------------------------------------------
b >------- 2-0-2-3-2---------2-0------------------
e >3-2-3--------------3-2-3------------------------
------------------------------------------------------
b >------- 2-0-2-3-2---------2-0------------------
e >3-2-3--------------3-2-3-----------------------
------------------------------------------------------
b >2-3----2-3-5—5—5-2-0-2-3-----------2-0--
e >------------------------------------3-2-3--------

b> 10--10-10-9-7-9-10—9-12-9-7-5-3-2-3-5—5-7-9—7-9-12-10-

b> 5-5-4-5-7-5-4-5—4-7-5-4-5-4—5-0-2-0-2-3-2

Download TABS 

Remaining learn by self :)

All the best

No comments:

Post a Comment